Learn Music: Strange World bass tab - Iron Maiden tabs

All lyrics are property and copyright of their respective owners and are provided for educational purposes only. This site is a not-for-profit project. All advertising proceeds are used to maintain its servers.


Strange World
IRON MAIDEN '80



I don't include the pause between the bar but is simple to get them from the
song. I think that this is one of the best song of Iron Maiden.
A special thanks to the owner of this tab.


G-------------------------|--------------------|------------------------
D---3:--------------------|--------------------|------------------------
A---4:--------------------|--7-----------------|------------------------
E-------0-----------------|--------7-----5-----|--0---------------------



G--|----------------------|--------------------|---------------------
D--|----------------------|--------------------|---------------------
A--|--5h7-----------------|--------------------|---------------------
E--|----------------------|--5h7---------------|--3h5-----3-----2----



G----|--------------------|--------------------|--------------------
D----|--------------------|--------------------|--------------------
A----|--------------------|--5h7---------------|--------------------
E----|--0-----------------|--------------------|--5h7---------------



G-------------------------|--------------------|------------------
D-------------------------|--------------------|------------------
A-------------------------|--------------------|--7---------------
E---3h5-----2h3-----2-----|--0-----------------|------------------



G----|--------------------|--------------------|-------------------
D----|--------------------|--------------------|-------------------
A----|--------------------|--------------------|--------------7--8-
E----|--0-----------0-----|--4-----5-----7-----|--8--------8-------



G---|---------------------|-----------------------|------------------
D---|---------------------|-----------------------|------------------
A---|--10--------8--7-----|----------------9--10--|--12--------9-----
E---|------------------8--|--10--------10---------|------------------



G--------------|------------------------|------------------------|------
D--------------|------------------------|----------------14--14--|------
A---h10p9------|----------------11--12--|--14--------14----------|------
E----------10--|--12--------12----------|------------------------|------



G---------------------------|--------------------------|----------------
D---14--14--14--12----------|--12----------------------|----------------
A-------------------14--12--|------14--12--------------|----------------
E---------------------------|--------------15--14--12--|--8--------8----



G---------|---------------------|-----------------------|---------------
D---------|---------------------|-----------------------|---------------
A---7--8--|--10--------8--7-----|----------------9--10--|--12-----------
E---------|------------------8--|--10--------10---------|---------------



G--------------|------------------------|-----------------------|-------
D--------------|------------------------|----------------12h14--|-------
A---10--9------|----------------11--12--|--14--------11---------|-------
E----------10--|--12--------12----------|-----------------------|-------



G---12h14--12--11--12--11--|--12--11------------------||----------------
D--------------------------|----------12--11----------||*---------------
A--------------------------|------------------12--10--||*---------------
E--------------------------|--------------------------||---8------------



G------------|---------------------|-----------------------|------------
D------------|---------------------|-----------------------|------------
A------7--8--|--10--------8--7-----|----------------9--10--|--12--------
E---8--------|------------------8--|--10--------10---------|------------



G-----------------|------------------------|----------------------------
D-----------------|------------------------|----------------14--14------
A------10--9------|----------------11--12--|--14--------14--------------
E-------------10--|--12--------12----------|----------------------------



G---|--------------------------|--------------------------|-------------
D---|--14--14--14--12----------|--12----------------------|-------------
A---|------------------14--12--|------14--12--------------|-------------
E---|--------------------------|--------------15--14--12--|--8----------



G------------|-----------------------|-----------------------|----------
D------------|------------10---------|-----------------------|----------
A------7--8--|--10------------10--8--|----------------9--10--|--12------
E---8--------|-----------------------|--10--------10---------|----------



G---------------------|------------------------|------------------------
D---------12----------|------------------------|----------------14------
A-------------12--10--|------------------------|------------14----------
E---------------------|--12--------12--12--12--|--12--------------------



G-------|------------------------|------------------|-------------------
D-------|------------------------|------------------|-------------------
A---14--|------------------------|------------------|-------------------
E-------|--12--------12--12--12--|--12-----7-----5--|-------------------


The only place...
G---------------------|--------------------|--------------------|-------
D------------------0--|--2--------2--0-----|--------------------|-------
A---------------2-----|-----------------2--|--------------------|-------
E---0--------0--------|--------------------|--3--------3--3-----|--3----



G------------------|--------------------|----------------------|--------
D------------------|--0--------0--0--0--|--0-----3h5-----0-----|--------
A------------2--3--|--------------------|----------------------|--3-----
E---------3--------|--------------------|----------------------|--------



G------------------|--------------------|--------------------|----------
D------------------|--------------------|-----------------0--|--2-------
A---------3--3-----|--3-----2--0--2-----|--------------2-----|----------
E------------------|-----------------3--|--0--------0--------|----------



G---------------|--------------------|----------------------|-----------
D------2--0-----|--------------------|--3h5--------3--2-----|--0--------
A------------2--|--------------------|-------------------3--|-----------
E---------------|--3--------3--3-----|----------------------|-----------



G---------------|----------------------|--------------------|-----------
D------0--0-----|--3h5--------3--2-----|--------------------|-----------
A---------------|-------------------3--|--3--------3--3-----|--3--------
E---------------|----------------------|--------------------|-----------



G-----------------|--------------------|--0h2--0--------------|---------
D---2-----3h5-----|-----------------2--|----------2--0--------|---------
A-----------------|--------------2-----|----------------3--2--|---------
E-----------------|--0--------0--------|----------------------|--3------



G------------------|--------------------|-----------------------|-------
D------------------|--------------------|--0--------0--0--0-----|--0----
A------------------|--------------2--3--|-----------------------|-------
E---------3--3-----|--3--------3--------|-----------------------|-------



G--------------------|--------------------|--------------------|--------
D------3h5-----0-----|--------------------|--------------------|--------
A--------------------|--3--------3--3-----|--3-----2--0--2-----|--------
E--------------------|--------------------|-----------------3--|--0-----



G------------------|--------------------|--------------------|----------
D---------------0--|--2--------2--0-----|--------------------|--3h5-----
A------------2-----|-----------------2--|--------------------|----------
E---------0--------|--------------------|--3--------3--3-----|----------



G------------------|--------------------|----------------------|--------
D---------3--2-----|--0--------0--0-----|--3h5--------3--2-----|--------
A---------------3--|--------------------|-------------------3--|--3-----
E------------------|--------------------|----------------------|--------



G------------------|--------------------|--------------------|----------
D------------------|--------------------|--------------------|----------
A---------3--3-----|--3-----2--0--2-----|--------------------|----------
E------------------|-----------------3--|--0-----------------|----------


(end of voice)
G------------------------|-----------------------|----------------------
D------------------------|-----------------------|----------------------
A------------------------|-----------------------|--7-------------------
E------------------------|--0--------------------|--------7-----5-------



G---|--------------------|-------------------|--------------------------
D---|--------------------|-------------------|--------------------------
A---|--------------------|--5h7--------------|--------------------------
E---|--0-----------------|-------------------|-----5h7------------------



G---|------------------------|------------------------||----------------
D---|------------------------|-----------------------*||----------------
A---|------------------------|-----------------------*||--5h7-----------
E---|--3h5-----2h3-----2-----|--0---------------------||----------------



G------------|-------------------|-----------------------|--------------
D------------|-------------------|-----------------------|--------------
A------------|-------------------|-----------------------|--------------
E------------|--5h7--------------|--3h5-----2h3-----0h2--|--0-----------



G------------------|--------------------------|-----------------|-------
D------------------|--------------------------|-----------------|--9----
A------------------|--7-----------------------|--------------7--|-------
E------------------|--------------------------|--0--------------|-------



G--------------------|--------------------|-----------------------|-----
D---7----------------|--------------------|------------10---------|-----
A------10--9--7--10--|--------------7-----|--7--8--10------10--8--|-----
E--------------------|--8--------8-----8--|-----------------------|-----



G------------------------|-------------------------|--------------------
D------------------------|-------------12----------|--------------------
A-----------------9------|--9--10--12------12--10--|--------------------
E---10--------10-----10--|-------------------------|--12--------12------



G-----------|------------------------|--------------------------|-------
D-----------|----------------14--14--|--14--14--14--12----------|-------
A---11--12--|--14--------14----------|------------------14--12--|-------
E-----------|------------------------|--------------------------|-------



G---------------------------|--------------------|----------------------
D---12----------------------|--------------------|----------------------
A-------14--12--------------|--------------7-----|---------7--8--10-----
E---------------15--14--12--|--8--------8-----8--|--10------------------



G-------|--------------------------|------------------------|-----------
D---10--|--------------------------|--------------------12--|-----------
A-------|-------------------9------|---------9--10--12------|-----------
E-------|--10-----------10-----10--|--12--------------------|--12-------



G------------------|-----------------------|--12h14--12--11--12--11-----
D------------------|----------------12h14--|----------------------------
A----------11--12--|--14--------14---------|----------------------------
E------12----------|-----------------------|----------------------------



G---|--12--11------------------|
D---|----------12--11----------|
A---|------------------12--10--|
E---|--------------------------|


(repeat the part between the 2 points)
G-----------------------------------------------------------------------
D-----------------------------------------------------------------------
A-----------------------------------------------------------------------
E-----------------------------------------------------------------------



G---|-------------------|-----------------|--------------7-----|----
D---|-------------------|-----------------|--9-----7-----------|----
A---|--7----------------|-----------------|--------------------|----
E---|-------------------|--0--------------|--------------------|----



G---7h9-----------------|-----------------||
D-----------------------|-----------------||
A-----------------------|-----------------||
E-----------------------|--0--------------||




========================================================================
== TABLATURE EXPLANATION ==
========================================================================

---------- ---------- ----t---
----5h8--- Hammeron ----(8)--- Ghost ----6--- Tap
---------- ---------- Note --------
----5p8--- Pulloff ---------- --------

---------- ---------- -----p--
----5/8--- Slide Up -----x---- Dead -----7-- Pop
---------- ---------- Note --s-----
----58--- Slide Down ---------- --5----- Slap

---------- ||------|| Repeat --------
----5~~~-- Vibrato ||*----*|| ---5^--- Bend
---------- ||*----*|| --------
---------- ||------|| --------

---------- ---------- --------
-4:------- Time ---------- --------
-4:------- Signature ---------- --------
---------- ---------- --------

Rhythm:
w = whole note W = dotted whole
h = half note H = dotted half
q = quarter note Q = dotted quarter
e = eighth note E = dotted eighth
s = sixteenth note S = dotted sixteenth
t = 32nd note T = dotted 32nd
x = 64th note X = dotted 64th
^ = triplet

========================================================================
== Created with a demo version of BUCKET O' TAB ==
== tablature creation software for Windows ==
== For more info email gse@his.com ==
========================================================================


All lyrics are property and copyright of their respective owners and are provided for educational purposes only. This site is a not-for-profit project. All advertising proceeds are used to maintain its servers.

» Read More...

Learn Music: Dyer Maker guitar chords - Led Zeppelin tabs

All lyrics are property and copyright of their respective owners and are provided for educational purposes only. This site is a not-for-profit project. All advertising proceeds are used to maintain its servers.


LED ZEPPELIN
D'yer Mak'er


Basically, it follows the pattern C Am F G:

C Am F G
Oh oh oh oh oh, you don't have to go, ...

repeated endless number of times, until:

Am G
When I read the letter you wrote me, ...

which also repeats a few times before going back to the verse.

Solo:
|------------------------------------------------------------------|
|------------------------------------------------------------------|
|-5-8b--8b-8-7-5----5-8b-8b-7-5-8b--7-5-8-7-5----8^7^5-------5---5-|
|----------------7----------------------------7--------7-7-7---7---|
|------------------------------------------------------------------|
|------------------------------------------------------------------|

|--------------------------------------|
|--------------------------------------|
|-8b^7^5-5-5-7-5-7b--5-8-8-7-5-8b------|
|--------------------------------------|
|--------------------------------------|
|--------------------------------------|

Lyrics:
Oh, oh, oh, oh, oh, you don't have to go oh, oh, oh, oh, oh, you don't
have to go oh, oh, oh, oh, oh, you don't have to go.

Ah, ah, ah, ah, ah, ah, all those tears are cried, ah, ah, ah, ah, all those
tears are cried, oh, oh, oh, oh, baby please, don't go.

When I read the letter you wrote me, made me mad, mad, mad.
When I read the news that you told me, made me sad, sad, sad.
But I still love you so, I can't let you go.
I love you, oww, baby I love ya. Oh!

Oh, oh, oh, oh, oh, oh, every breath I take, oh, oh oh, oh, ooh, every breath
I have babe, eeh, ooh, baby please, don't go.. Aah

Ah, ah, ah, ah, ah, ah, you hurt me to my soul, ooh, oh, oh, oh, you hurt
me to my soul, ouh, oo, ouh, darlin' please, don't go..

When I read the letter you sent me, made me mad, mad, mad.
When I read the news that you brought me, made me sad, sad, sad.
But I still love you so, and I can't let you go.
I love you, oww, baby I love ya. Aaw!

Solo

Oh, oh, oh, oh, oh, oh, you don't have to go, oh, oh, oh, oh, you don't
have to go, oh, oh, oh, oh, ooh baby, babe, please, please, please, please..

Ah, ah, ah, ah, ah, ah, babe, ah, ah, I really love you babe, uh, uh, uh, uh,
uh, uh, don't ooh, ooh, ooh, baby I still love you so, ooh, baby I
still love you so.. ooh, uuh, oh, oh, oh, oh, oh, oh, babe,
ah, ah, ah, ah, ah, ah, ooh, ah, ah, ah, ah, ah, ooooooow, uu yeah, oh baby..


I'm not very sure about the solo, 'cos I tabbed it myself and I have been
playing guitar just 6 months. I have tabbed it to A but it might go in C.

P.S. If any has tabs to Hummingbird by Jimmy Page please post.




All lyrics are property and copyright of their respective owners and are provided for educational purposes only. This site is a not-for-profit project. All advertising proceeds are used to maintain its servers.

» Read More...

Learn Music Lyrics and Cord: Charisma bass tab - Kiss tabs

All lyrics are property and copyright of their respective owners and are provided for educational purposes only. This site is a not-for-profit project. All advertising proceeds are used to maintain its servers.


Submitted By: Alex
Email: dr_bypass@yahoo.com
Band: Kiss
Song: Charisma



intro...
G--------------------------------------------------------
D--------------------------------------------------------
A-------------------------2---------------------2-1------
E-2-4-4--4-4-4--4-4-4---2---2-4-4--4-4-4--4-4-4-----4-0-0

G--------------------------------------------------------
D--------------------------------------------------------
A---------------2-1---------------------2-4-2------------
E-0-0-0--0-0-0------2-4-4--4-4-4--4-4-4------------------

lyrics...
G--------------------------------------------------------
D--------------------------------------------------------
A---------------6-6--6-6-6--6--------------6-6--6-6-6--6-
E-4-4--4-4-4--4----------------4-4--4-4-4-4--------------

G--------------------------------------------------------
D--------------------------------------------------------
A--------------------------------------------------------
E-0-0-0-0-0-0-0-0-2--(repeat)----------------------------

guitar solo "build up.."
G--------------------------------------------------------
D--------------------------------------------------------
A-----------------------------7-7--7-7-7--7-9-9--9-9-9--9
E-2-2--2-2-2--2-4-4--4-4-4--4----------------------------

G--------------------------------------------------------
D--------------------------------------------------------
A-2-2--2-2-2--2-4-4--4-4-4--4-6-6-6-6-6-6-6-6-6-6-6-6--/-
E--------------------------------------------------------

....repeat intro & lyric riff til end

make sure include ...
G----------------------/13-13--13-13--(x2)---------------

right before the end...

practice every day!!!!!


All lyrics are property and copyright of their respective owners and are provided for educational purposes only. This site is a not-for-profit project. All advertising proceeds are used to maintain its servers.

» Read More...

Learn Music: The Everlasting bass tab - Manic Street Preachers tabs

All lyrics are property and copyright of their respective owners and are provided for educational purposes only. This site is a not-for-profit project. All advertising proceeds are used to maintain its servers.


THE EVERLASTING

By Manic Street Preachers, from the album If You Tolerate This Your Children Will Be Next

Words by Nicky Wire, Music by James Dean Bradfield and Sean Moore

96bmp
Intro
1st Verse
G|| 6 || 5 |----------------|----------------|6---6---6---6---|5---5---5---5---|
D|4|-----||||-----||--------------7-|8---8---8---8---|----------------|----------------|
A|4|-----||||-----||----------------|----------------|----------------|----------------|
E|| || |----------------|----------------|----------------|----------------|

|----------------|----------------|5---5---5-----5-|7---7---7-----7-|----------------|
|7---7---7-----7-|8---8---8-----8-|----------------|----------------|5---5---5-----55|
|----------------|----------------|----------------|----------------|----------------|
|----------------|----------------|----------------|----------------|----------------|

$
Chorus
|6---6---6-6-6---|5-5-5-5-5-5-5-5-|----------------|| ----------------|----------------|
|----------------|----------------|----------------||:----------------|5---5--05-5-5-5-|
|----------------|----------------|3-3-3-3-3-3-3-3-||:5---5--05-5-5-5-|----------------|
|----------------|----------------|----------------|| ----------------|----------------|

|----------------|----------------|----------------|----------------|----------------|
|----------------|----------------|----------------|----------------|----------------|
|3---3--33-3-3-3-|0---0--00-0-0-0-|1---1--11-1-1-1-|1---1--11-1-1-1-|0---0--00-0-0-0-|
|----------------|----------------|----------------|----------------|----------------|

|---------------- ||----------------|----------------|----------------|----------------|
|----------------:||----------------|----------------|3---3---2-2-2-0-|----0---0-0-0---|
|--0-0--00-0-0-0-:||1---1--11-1-1-3-|3-3-3--13-3-3-0-|----------------|-------0------0-|
|---------------- ||----------------|----------------|----------------|----------------|

2nd time to Coda I @
3rd time to Coda II @@
|----------------|----------------|----------------|----------------|
|----------------|----------------|----------------|------------7-5-|
|----------------|----------------|0---0--00-5-7-0-|----0--70-0-----|
|3---3--13-3-3-1-|3---3--13-3-3-1-|----------------|----------------|

2nd Verse
|----------------|----------------|----------------|----------------|----------------|
|----------------|----------------|----------------|----------------|----------------|
|----------------|----------------|0---0---0-0-0-0-|0---0--00-0-0-0-|5---5---5-5-5-5-|
|1---1---1-1-1-1-|1---1--11-1-1-1-|----------------|----------------|----------------|

|----------------|----------------|----------------|----------------|----------------|
|----------------|----------------|----------------|----------------|----------------|
|5---5--55-5-5-5-|1---1---1-1-1-1-|4---4--44-444444|3---3---3-3-3-3-|0---0--00-0-0-0-|
|----------------|----------------|----------------|----------------|----------------|

|----------------|----------------|----------------|----------------|----------------|
|----------------|----------------|----------------|----------------|----------------|
|1---1---1-1-1-1-|3---3--33-3-3-3-|5---5---5-5-5-5-|----------------|4---4---4-4-4-4-|
|----------------|----------------|----------------|3---3--33-3-3-3-|----------------|

|----------------|----------------|
|----------------|----------------| D.S. al Coda I
|3---3--33-3-3-3-|3---3---3-3-3333| $
|----------------|----------------|

Coda I
@ Guitar Solo
|----------------|----------------|--------------- -|----------------|----------------|
|--------7-7-7-7-|8---8--88-8-8-8-|8---8--88-8-8-10-|7---7---7-7-7---|7---7---7-7-7---|
|0-0-0--0--------|----------------|--------------- -|-------7------7-|-------7--------|
|----------------|----------------|--------------- -|----------------|--------------8-|

|----------------|----------------|----------------|----------------|----------------|
|----------------|----------------|----------------|----------------|----------------|
|5---5--55-5-5-5-|5---5--55-5-5-3-|1---1--11-1-1-1-|4---4--44-4-4-4-|3---3--33-3-3-3-|
|----------------|----------------|----------------|----------------|----------------|

|----------------|----------------|----------------|----------------|----------------|
|----------------|----------------|----------------|----------------|----------------|
|0---0--00-0-0-0-|1---1--11-1-1-1-|3---3--33-3-3-3-|5---5--55-5-5-5-|--------------1-|
|----------------|----------------|----------------|----------------|3---3--33-3-3---|

|----------------|----------------|----------------|
|----------------|----------------|----------------| D.S. al Coda II
|4---4--44-4-7---|3-3-3-3-3-3-3-3-|3-3-3-3-3-3-3-3-| $
|----------------|----------------|----------------|

Coda II
@@
|----------------|----------------|----------------|----------------|----------------|
|----------------|----------------|----------------|3---3---2-2-2-0-|0---0---0-0-0---|
|--0-0--00-0-0-0-|1---1--11-1-1-3-|3-3-3--13-3-1-0-|----------------|-------0------0-|
|----------------|----------------|----------------|----------------|----------------|

^
|----------------|----------------|----------------|----------------|----------------||
|----------------|----------------|----------------|----------------|----------------||
|----------------|----------------|0---0--00-5-7-0-|--0-0--00-0-3-3-|5---------------||
|3---3--13-3-3-1-|3---3--13-3-3-1-|----------------|----------------|----------------||


Tabbed By Neil Ogden. E-mail me at i_am_the_sun@mailcity.com

FASTER

****************************************************************************************

Bass Guitar Tablature Explanation

Each dash / symbol in the tablature represents a 16th note, so in a 4/4 bar there are 16 dashes,
2/4 there are 8, etc. Where the tablature for one note needed more than just one symbol
for a note (e.g., where the note played is on fret 10 or above, gaps have been placed in the
surrounding dashes in order that the note's length isn't confused, and that there isn't a
problem raised over "Is it a 'Ten' or 'One' then a 'Zero".There was also a problem over hammer-on's,
etc between 16th notes, and so gaps have been left in the surrounding dashes in these cases.
Hope you understand all this, once you get the hang of it, it should be really easy!!

|----------------| |----------------|
|----------------| Slide Up |---3-----------| Slide Down
|--5/------------| |----------6----|
|----------/7----| |----------------|

|----------93---| |----------------|
|----------------| Slide (Play |----------------| Slide (Only
|-2/6------------| Both Notes) |----------(9)4-| Play First
|----------------| |--3/(7)---------| Note)

|----------------| |----------------|
|----------------| Long Slide |----------------| A Triplet
|--5/////9-------| (e.g., Between |-3-3-2----------| With Quarter
|----------------| Quarter Notes) |----------------| Notes
[ 3 ]

|------ ----------| A Triplet |--- -------------|
|------ ----------| With Eighth |--- -------------| A Triplet
|----5-6-7--------| Notes (Note |--- -------------| With Sixteenth
|------ ----------| Gap In Tab!!) |--000------------| Notes
[ 3 ] [3]

|----------------| |----------------|
|----------------| Hammer-On |----------------| Pull-Off
|----------------| |----9p7---------|
|----5h7---------| |----------------|

/
|----------------| |--/-------------|
|----------------| Vibrato (Rapidly |--/-------------| Tremolo (Play
|---6^^^^^^------| Bend And Release |--7-------------| Note As Quickly
|----------------| The Note) |----------------| As Possible)

^
| 3 | Miss The Specified |----------------| Hold Note For
||-----|| Number Of Bars (In |-----7----------| Longer Than
||-----|| This Case, It's 3) |----------------| Specified
| | |----------------| ('fermate' sign)

"
|----------------| x-Muffled/Muted Note |----------------| "-Accent Note
|---x------------| P.M.-Palm Mute(Partially |----------------| (Play Louder)
|----------------| mute the note by touching |-----7----------| ^-Accentuate note
|--------0-0-0-0-| the string just before the |-----------0----| with great intensity
P.M.----| bridge with the right hand) >

|----------------| | 2 | Repeat The Specified Number
|----------------| Staccato ||--%--|| Of Bars (In This Case, It's
|----------------| (Play Note ||--%--|| 2). NOTE: No Number Means
|-----------8----| Short And Sharp) | | Miss Only One Bar!!
·

|- - - - - - - - - - ------| |--9---7---6---7-| T-Slap Note
|- - - - - - - - - - ------| 32nd Notes |----------------|
|2020- 20244424444200------| |7---5---4---5---| P-Pull Note
|- - 20- - - - - - - 2-----| |----------------|
tttttttttttttttttttt T P T P T P T P


Tabbed By Neil Ogden. E-mail me at i_am_the_sun@mailcity.com

FASTER


All lyrics are property and copyright of their respective owners and are provided for educational purposes only. This site is a not-for-profit project. All advertising proceeds are used to maintain its servers.

» Read More...

Learn Music: Silas Stingy guitar chords - The_who tabs

All lyrics are property and copyright of their respective owners and are provided for educational purposes only. This site is a not-for-profit project. All advertising proceeds are used to maintain its servers.


Silas Stingy
By The Who
>From The Who Sell Out, 1967
Written by John Entwistle

==============
transcribed by
litgo@aol.com
==============

Dm Dm/A C/G C/E
Once upon a time, there lived an old miser man
Dm F G Em
By the name of Silas Stingy
Dm Am G C
He carried all his money in a little black box,
Dm Bb C Am
Which was heavy as a rock with a big padlock
Bb G Am F
All the little kids would shout when Silas was about

[chorus]
Em F Gm Am
Money money money bags, money money money bags
Dm (Dm) C (Bb) Am F Bb (Bb) Am (G) Dm/F Dm
There goes mingy Stingy, there goes mingy Stin-gy

Em F Gm Am
Money money money bags, money money money bags
Dm (Dm) C (Bb) Am F Bb (Bb) Am (G) F/A Dm/F
There goes mingy Stingy, there goes mingy Stin-gy

Silas didn't eat, which was just as well
He would starve himself for a penny
He wore old clothes and he never washed
'Cause soap cost a lot
And the dirt kept him hot
All the little kids would shout
When Silas was about

[repeat chorus]

D5 D5 C#5 D5 D5 C#5 D5 D5C#5 D5 D5 C#5
In the back of his head was a voice that said,
G5 F#5 F5 E5 Eb5 D5 Bb5
"Someone will steal it all
D5 D5 C#5 D5 D5 C#5 D5 D5 C#5 D5 D5 C#5
He'll be lying in the gutter with an empty box,
G5 F#5 F5 E5 Eb5 D5 C5
The thieves will be having a ball"

[repeat chorus]

Dm

Dm A Bb F
He bought a safe to put the box in and a house to put the safe in
Gm Dm Am
And a watchdog on a chain to make quite sure
Bb F Gm Dm
And his face was very funny when he counted up his money
Bb Am
And he realized he hadn't any more

[repeat chorus; final repeat:]

Bb (Bb) Am (G) A D
There goes mingy Stingy

=============
litgo@aol.com


All lyrics are property and copyright of their respective owners and are provided for educational purposes only. This site is a not-for-profit project. All advertising proceeds are used to maintain its servers.

» Read More...

Learn and Play Music: Corduroy bass tab - Pearl Jam tabs

All lyrics are property and copyright of their respective owners and are provided for educational purposes only. This site is a not-for-profit project. All advertising proceeds are used to maintain its servers.


Pearl Jam
Corduroy
Tabbed By: Justin Clark
Truro,Cornwall UK.
I read the previous tab by The wolf (yu125676@yorku.ca)
and its not quite right,
so I've made some corrections.

Normal Tuning : EADG

Intro
G---------------------------------
D---------------------------------
A----7-7-7-7-7-7-0--0-------------
E--------------------8--88888-----
(The intro on the Vitalogy album is much more complicated, but
I can't be bothered to work it out)

Verse
G---------------------------------
D---------------------------------
A--/8-8-8-8-7---------------------
E------------3--33----------------

Chorus
G---------------------------------
D---------------------------------
A---3-3-3-3-22-2-0----------------
E-----------------3-333-----------

Interlude
G---------------------------------
D--------------------------------- There are some variations here,
A---222222222222-3333333333------- but I can't be bothered to work
E--------------------------------- them out!
"Everything has changed..."

Quiet bit before ending
G---------------------------------
D---------------------------------
A---7777777777777777-0-0----------
E-----------------------8---------

Ending
G-----------------------------------------
D-----------------------------------------
A---777777777777-0000000000---------------
E----------------------------88888888888--

Send any corrections to jupclark@yahoo.com


All lyrics are property and copyright of their respective owners and are provided for educational purposes only. This site is a not-for-profit project. All advertising proceeds are used to maintain its servers.

» Read More...

Learn and Play Music: Purify bass tab - Metallica tabs

All lyrics are property and copyright of their respective owners and are provided for educational purposes only. This site is a not-for-profit project. All advertising proceeds are used to maintain its servers.


Song:Purify
Group: metallica
tunning: F-C-G-C
Bassist: Bob Rock
Tabbed by metaledo

james start and the bass enter in the third time

|--------------------------------|
|--------------------------------|
|--------------------------------|
|--0-0-0-0-0-0-0-0-0-------------|

|--------------------------------|
|--------------------------------| X4 times
|--------------------------------|

|--0-0-3--3-3-0--3-3-0--3/5-5-0--|

|----------------------------------|
|----------------------------------| X4 times
|----------------------------------|
|--0--0----0--0----0--0----0--0----|

|--------------------| |----------------------|
|--------------------| X8 |----------------------| X4
|--------------------| |----------------------|
|--4-4-5-6-7--0------| |--4-4-5-6-7--0-0-0----|

|--------------------------|--------------------------|
|--------------------------|--------------------------|
|--------------------------|--------------------------|
|--7--7--7--7--7--7--7--7--|--6--6--6--6--6--6--6--6--|

|--------------------------|--------------------------|------------------------|
|--------------------------|--------------------------|------------------------|
|--------------------------|--------------------------|------------------------|
|--5--5--5--5--5--5--5--5--|--6--6--6--6--6--6--6--6--|--1-2-3------1-2-3------|

|------------------------|--------------------------|--------------------------|
|------------------------|--------------------------|--------------------------|
|------------------------|--------------------------|--------------------------|
|--1-2-3------1-2-3------|--7--7--7--7--7--7--7--7--|--6--6--6--6--6--6--6--6--|

|--------------------------|--------------------------|------------------------|
|--------------------------|--------------------------|------------------------|
|--------------------------|--------------------------|------------------------|
|--5--5--5--5--5--5--5--5--|--6--6--6--6--6--6--6--6--|--1-2-3------1-2-3------|

|------------------------|---------------------------|----------------------------|
|------------------------|---------------------------|----------------------------|
|------------------------|---------------------------|----------------------------|
|--1-2-3------1-2-3------|--1-2-3-3-3---1-2-3-3-3----|--1-2-3-3-3---1-2-3-3-3-----|

|-------------------------------|
|-------------------------------|
|-------------------------------|
|----3-3-3-3-3-3-3-3-3-3-3------|

james plays only (the bass is muted)
|--------------------------------|
|--------------------------------| X4
|--------------------------------|
|--0-0-3--3-3-0--3-3-0--3/5-5-0--|


|--------------------| |-----------------------|
|--------------------|X8 |-----------------------| X4
|--------------------| |-----------------------|
|--4-4-5-6-7--0------| |--4-4-5-6-7--0-0-0-----|

|--------------------------|--------------------------|
|--------------------------|--------------------------|
|--------------------------|--------------------------|
|--7--7--7--7--7--7--7--7--|--6--6--6--6--6--6--6--6--|

|--------------------------|--------------------------|------------------------|
|--------------------------|--------------------------|------------------------|
|--------------------------|--------------------------|------------------------|
|--5--5--5--5--5--5--5--5--|--6--6--6--6--6--6--6--6--|--1-2-3------1-2-3------|

|------------------------|--------------------------|--------------------------|
|------------------------|--------------------------|--------------------------|
|------------------------|--------------------------|--------------------------|
|--1-2-3------1-2-3------|--7--7--7--7--7--7--7--7--|--6--6--6--6--6--6--6--6--|

|--------------------------|--------------------------|------------------------|
|--------------------------|--------------------------|------------------------|
|--------------------------|--------------------------|------------------------|
|--5--5--5--5--5--5--5--5--|--6--6--6--6--6--6--6--6--|--1-2-3------1-2-3------|

|------------------------|---------------------------|----------------------------|
|------------------------|---------------------------|----------------------------|
|------------------------|---------------------------|----------------------------|
|--1-2-3------1-2-3------|--1-2-3-3-3---1-2-3-3-3----|--1-2-3-3-3---1-2-3-3-3-----|

|---------------------------|
|---------------------------|
|---------------------------|
|--3-3-3-3-3-3-3-3-3-3-3----|

|----------------------------------|
|----------------------------------| X4 times
|----------------------------------|
|--0--0----0--0----0--0----0--0----|

|--------------------------------------------------|
|--------------------------------------------------| X2
|--------------------------------------------------|
|--0--0--3--0--3--0--0--3--0--0--3--0--3--0--0--0--|

|----------------------------------------|
|----------------------------------------| X 4
|----------------------------------------|
|--0-0-12-0-12-0-0-12-0-0-12-0-12-15b15r-|

|--------------------------|
|--------------------------|
|--------------------------|
|--7--7--7-7---3--3--3-3---|

|------------------------------|--------------------------|
|------------------------------|--------------------------|
|------------------------------|--------------3--3--3-3---|
|--5--0--0--0-0---12h0-12h15---|--7--7--7-7---------------|

|------------------------------|
|------------------------------|
|------------------------------|
|--5--0--0--0-0---12h0-12h15---|

|---------------------------|
|---------------------------| X4
|---------------------------|
|--3--0-3h5-0---3--3h-5-0---|

|--------------------------|
|--------------------------|
|--------------------------|
|--7--7--7-7---3--3--3-3---|

|------------------------------|--------------------------|
|------------------------------|--------------------------|
|------------------------------|--------------3--3--3-3---|
|--5--0--0--0-0---12h0-12h15---|--7--7--7-7---------------|

|------------------------------|
|------------------------------|
|------------------------------|
|--5--0--0--0-0---12h0-12h15---|

|---------------------------|
|---------------------------| X10
|---------------------------|
|--3--0-3h5-0---3--3h-5-0---|

|----------------------------------------|
|----------------------------------------| X4
|----------------------------------------|
|--0-0-12-0-12-0-0-12-0-0-12-0-12-15b15r-|

|--------------------------------------------------|
|--------------------------------------------------| X2
|--------------------------------------------------|
|--0--0--3--0--3--0--0--3--0--0--3--0--3--0--0--0--|

|--------------------------|--------------------------|
|--------------------------|--------------------------|
|--------------------------|--------------------------|
|--7--7--7--7--7--7--7--7--|--6--6--6--6--6--6--6--6--|

|--------------------------|--------------------------|------------------------|
|--------------------------|--------------------------|------------------------|
|--------------------------|--------------------------|------------------------|
|--5--5--5--5--5--5--5--5--|--6--6--6--6--6--6--6--6--|--1-2-3------1-2-3------|

|------------------------|--------------------------|--------------------------|
|------------------------|--------------------------|--------------------------|
|------------------------|--------------------------|--------------------------|
|--1-2-3------1-2-3------|--7--7--7--7--7--7--7--7--|--6--6--6--6--6--6--6--6--|

|--------------------------|--------------------------|------------------------|
|--------------------------|--------------------------|------------------------|
|--------------------------|--------------------------|------------------------|
|--5--5--5--5--5--5--5--5--|--6--6--6--6--6--6--6--6--|--1-2-3------1-2-3------|

|------------------------|---------------------------|----------------------------|
|------------------------|---------------------------|----------------------------|
|------------------------|---------------------------|----------------------------|
|--1-2-3------1-2-3------|--1-2-3-3-3---1-2-3-3-3----|--1-2-3-3-3---1-2-3-3-3-----|

|---------------------------|
|---------------------------|
|---------------------------|
|--3-3-3-3-3-3-3-3-3-3-3-3--|

in the seven time enter the bass with this

|---------------------|---------------------|---------------------|
|---------------------|---------------------|---------------------|
|------3---5----------|------3---5----------|------3---5----------|
|--0h7-------0--0--0--|--0h7-------0--0--0--|--0h7-------0--0--0--|


|---------------------|------------------------|------------------------|
|---------------------|------------------------|------------------------|
|------3---5----------|--8--8--8----5----------|--8--8--8----5----------|
|--0h7-------0--0--0--|--10-10-10-----0--0--0--|--10-10-10-----0--0--0--|

|---------------------|---------------------|---------------------|
|---------------------|---------------------|---------------------|
|------3---5----------|------3---5----------|------3---5----------|
|--0h7-------0--0--0--|--0h7-------0--0--0--|--0h7-------0--0--0--|

|---------------------|------------------------|---------------------|------||
|---------------------|------------------------|---------------------|------||
|------3---5----------|--8--8--8----5----------|--8--8--8----5-------|------||
|--0h7-------0--0--0--|--10-10-10-----0--0--0--|--10-10-10-----0-----|------||


All lyrics are property and copyright of their respective owners and are provided for educational purposes only. This site is a not-for-profit project. All advertising proceeds are used to maintain its servers.

» Read More...

My Favourite Posts

Archives